forum gacul

SWT
 
HomeCalendarFAQSearchMemberlistUsergroupsRegisterLog in
Log in
Username:
Password:
Log in automatically: 
:: I forgot my password
Latest topics
» Compra Viagra. viagra generico vendita corpi cavernosi
Thu Aug 04, 2011 6:46 pm by Guest

» Comprare Viagra. comprare viagra generico aiuto
Thu Aug 04, 2011 4:57 pm by Guest

» Acquistare Viagra. vendita viagra generico per
Thu Aug 04, 2011 6:00 am by Guest

» Compra Viagra. viagra generico vendita
Thu Aug 04, 2011 5:40 am by Guest

» Viagra Sin Receta. viagra femenino natural
Fri Jul 29, 2011 9:26 pm by Guest

» Comprar Viagra Online. viagra en andorra
Fri Jul 29, 2011 5:09 am by Guest

» Comprar Viagra. viagra pfizer 100mg
Thu Jul 28, 2011 1:38 pm by Guest

» Viagra Precio. mejor que la viagra
Thu Jul 28, 2011 4:50 am by Guest

» Endless War TwelveSky2
Sat Jul 16, 2011 6:05 pm by masadepansuram


Share | 
 

 Mr.big promise Her The Moon

Go down 
AuthorMessage
Admin
Admin
avatar

Posts : 35
Join date : 2011-07-04
Age : 27
Location : depok 2 tengah

PostSubject: Mr.big promise Her The Moon   Wed Jul 06, 2011 11:42 am

[Intro]
Dadd4 Em C G Dadd4 Em Cadd9
E E E E E E E E E E E E E E E E E E E E E E E E E E E E +H
|------------------|-----------------|------------------|-------3-(3)----|
|--------------0---|-----------------|--------------0---|-------3-(3)----|
|------0-----0---0-|-----0-----0-----|------0-----0---0-|-----0----------|
|----4-----5-------|---2-----2-------|----4-----5-------|---2------------|
|-/5-----7---------|-3-----3-----2---|-/5-----7---------|-3--------------|
|------------------|---------------3-|------------------|----------------|


Dadd4 Em C G Fsus2 Em7 C Bb6 Csus2
E E E E E E E E E E E E E E E E E E E E E E E E E E E E E E +E +E
|------------------|-----------------|-----3-----------|----------------------||
|--------------0---|-----------------|-----------3-----|----------------------||
|------0-----0---0-|-----0-----0-----|---0-----0-------|-0-----0----------0---||
|----4-----5-------|---2-----2-------|-3-----2-------2-|-----0--------0-------||
|-/5-----7---------|-3-----3-----2---|-------------3---|---1-----1h3----------||
|------------------|---------------3-|-----------------|----------------------||



G5 Gsus2
E E E E +H +W E E E E +H +W
||---3-----5-(5)----|-(5)--------|----3---5-(5)----|-(5)----|
||---3-----3-(3)----|-(3)--------|----3---3-(3)----|-(3)----|
||---0-----2-(2)----|-(2)--------|----0---2-(2)----|-(2)----|
||---0--------------|------------|----0------------|--------|
||------------------|------------|-----------------|--------|
||------------------|------------|-----------------|--------|
You don't know what you've got, Till the love is almost gone
Still in a state of shock I should've seen it coming on


I was too blind to notice her Wrapped up in myself
I thought we were so secure Can't imagine someone else

C6/9 Cmaj7 Csus2 C5 Cmaj7
Q E E Q Q +W E E E E E E E E E E E E E E E E
|--1----3----3--|-(3)--------|-----------------|-------------------||
|--1----0----3--|-(3)--------|---1-----0-------|-------------------||
|--2----0----0--|-(0)--------|-----0-----0-----|--2--0------0------||
|-------0----0--|-(0)--------|-----------------|----------0--------||
|--3----3----3--|-(3)--------|-------3------3--|-------3-----------||
|---------------|------------|-----------------|-------------------||
This time, yeah she's given up
It's too late for waking up

Workin' hard overtime, night and day
Could come between us, And take her away

Gmaj7/B Gmaj7sus4/C Em9 Gmaj7sus4/C
E E E E +H E E E E +E Q E E E E E E E E E E E E E +H
|----------------|------------------|---------0-------|----------------|
|-------3-(3)----|-------3-(3)------|-------3---3-----|-------3-(3)----|
|-----0----------|-----0-------0----|-----0-------0---|-----0----------|
|---4------------|---4------------4-|---4-----------4-|---4------------|
|-2--------------|-3----------------|-----------------|-3--------------|
|----------------|------------------|-0---------------|----------------|
her mind's made up I know the dream is over

Gmaj7/B Gmaj7sus4/C
E E E E +H E E E E +E Q E
|----------------|------------------|
|-------3-(3)----|-------3-(3)------|
|-----0----------|-----0-------0----|
|---4------------|---4------------4-|
|-2--------------|-3----------------|
|----------------|------------------|
But my heart just can't let go

Am7 C/F
E E E a E +E E S S S E E E E E +H
|-------------------------|-------0-(0)----||
|-------1h3-(3)-3---1-----|-----1----------||
|-----0---------------0---|---0------------||
|---2-------------------2-|-3--------------||
|-0-----------------------|----------------||
|-------------------------|----------------||

[Reff]
Dadd4 Em C G Dadd4 Em Cadd9
E E E E E E E E E E E E E E E E E E E E E E E E E E E E +H
|------------------|-----------------|------------------|-------3-(3)----|
|--------------0---|-----------------|--------------0---|-------3-(3)----|
|------0-----0---0-|-----0-----0-----|------0-----0---0-|-----0----------|
|----4-----5-------|---2-----2-------|----4-----5-------|---2------------|
|-/5-----7---------|-3-----3-----2---|-/5-----7---------|-3--------------|
|------------------|---------------3-|------------------|----------------|
She's too good to be forgotten Too good to be true

Dadd4 Em C G
E E E E E E E E E E E E E E E E
|------------------|-----------------|
|--------------0---|-----------------|
|------0-----0---0-|-----0-----0-----|
|----4-----5-------|---2-----2-------|
|-/5-----7---------|-3-----3-----2---|
|------------------|---------------3-|
Before my world is torn apart

Dadd4 Em F Cadd9
E E E E E E E E E E E E +H E E E E +H
|------------------|-------1-(1)----|---------0-(0)----||
|--------------0---|-----1----------|-------1h3-(3)----||
|------0-----0---0-|---2------------|-----0------------||
|----4-----5-------|-3--------------|--2---------------||
|-/5-----7---------|----------------|-(3)--------------||
|------------------|----------------|------------------||
I'll promise her the moon I'll promise her the moon


Gadd9 C6/9 Cmaj7 Csus2
E E E E +H +W Q E E Q Q +W
|----3---5-(5)----|-(5)--------|--1----3----3--|-(3)--------|
|----3---3-(3)----|-(3)--------|--1----0----3--|-(3)--------|
|----0---2-(2)----|-(2)--------|--2----0----0--|-(0)--------|
|----0------------|------------|-------0----0--|-(0)--------|
|-----------------|------------|--3----3----3--|-(3)--------|
|-----------------|------------|---------------|------------|


F G F G
Q. Q E E E E E E Q E E E Q. Q E E E E E E Q E E E
|-^1----0--1-----|--------------3-|-^1----0--1-----|--------------3-|
|-^1---------1---|-0-----1--0-----|-^1---------1---|-0-----1--0-----|
|-^2-----------2-|---0--------0---|-^2-----------2-|---0--------0---|
|-^3-------------|-----0----------|-^3-------------|-----0----------|
|----------------|----------------|----------------|----------------|
|----------------|-3--------------|----------------|-3--------------|
And all the time she stood by me I never said "I love you"

Am C Am D DsusD
E E E E +E E E E E E E E +E E E E E E E E +E E E E E E E E E E E E
|-------------0-----|-------------0-----|-------------0-----|-2-----3---2-----|
|-------1-(1)---1---|-------1-(1)---1---|-------1-(1)---1---|---3-----3---3---|
|-----2-----------2-|-----0-----------0-|-----2-----------2-|-----2---------2-|
|---2---------------|---2---------------|---2---------------|-0---------------|
|-0-----------------|-3-----------------|-0-----------------|-----------------|
|-------------------|-------------------|-------------------|-----------------|
Yeah, I kept it deep down in my soul And all the while I've been a fool

G/B Csus2 Fsus2
Q E E Q Q +W +W +H
|-3----3----3--|-(3)--------|-(3)--------|-(3)----||
|-3----3----1--|-(1)--------|-(1)--------|-(1)----||
|-0----0----0--|-(0)--------|-(0)--------|-(0)----||
|-----------3--|-(3)--------|-(3)--------|-(3)----||
|-2----3-------|------------|------------|--------||
|--------------|------------|------------|--------||
yeah, yeah yeah.

[To Reff]

[ENDING]
Dadd4 Em C G Dadd4 Em Cadd9
E E E E E E E E E E E E E E E E E E E E E E E E E E E E +H
|------------------|-----------------|------------------|-------3-(3)----|
|--------------0---|-----------------|--------------0---|-------3-(3)----|
|------0-----0---0-|-----0-----0-----|------0-----0---0-|-----0----------|
|----4-----5-------|---2-----2-------|----4-----5-------|---2------------|
|-/5-----7---------|-3-----3-----2---|-/5-----7---------|-3--------------|
|------------------|---------------3-|------------------|----------------|


Dadd4 Em C G
E E E E E E E E E E E E E E E E
|------------------|-----------------|
|--------------0---|-----------------|
|------0-----0---0-|-----0-----0-----|
|----4-----5-------|---2-----2-------|
|-/5-----7---------|-3-----3-----2---|
|------------------|---------------3-|
I'll promise her the moon

Fadd9 Em7 Cadd9 Bb C Gadd9
E E E E E E E E E E E E E E +E +E E E E E +H +W
|-----3-----------|----------------------|----3---5-(5)----|-(5)----*|
|-----------3-----|----------------------|----3---3-(3)----|-(3)----*|
|---2-----0-------|-0--------------------|----0---2-(2)----|-(2)----*|
|-3-----2-------0-|-----0----------------|----0------------|--------*|
|-------------3---|---1---1-1h3-(3)-(3)\-|-----------------|--------*|
|-----------------|----------------------|-----------------|--------*|
Yeahh
Back to top Go down
View user profile http://chendika.forumotion.com
 
Mr.big promise Her The Moon
Back to top 
Page 1 of 1

Permissions in this forum:You cannot reply to topics in this forum
forum gacul :: Music Internasional-
Jump to: